ISO-10303-21;
HEADER;
FILE_DESCRIPTION (( 'STEP AP203' ),
    '1' );
FILE_NAME ('Q-OZHWP-R2-10-266-M.STEP',
    '2020-12-22T09:11:25',
    ( '' ),
    ( '' ),
    'SwSTEP 2.0',
    'SolidWorks 2020',
    '' );
FILE_SCHEMA (( 'CONFIG_CONTROL_DESIGN' ));
ENDSEC;

DATA;
#1 = COORDINATED_UNIVERSAL_TIME_OFFSET ( 8, 0, .AHEAD. ) ;
#2 =( NAMED_UNIT ( * ) PLANE_ANGLE_UNIT ( ) SI_UNIT ( $, .RADIAN. ) );
#3 = PERSON_AND_ORGANIZATION ( #138, #256 ) ;
#4 = SECURITY_CLASSIFICATION ( '', '', #149 ) ;
#5 = AXIS2_PLACEMENT_3D ( 'NONE', #32, #291, #211 ) ;
#6 = APPROVAL_STATUS ( 'not_yet_approved' ) ;
#7 = ORIENTED_EDGE ( 'NONE', *, *, #174, .F. ) ;
#8 = DATE_TIME_ROLE ( 'classification_date' ) ;
#9 = AXIS2_PLACEMENT_3D ( 'NONE', #255, #279, #51 ) ;
#10 = VECTOR ( 'NONE', #275, 1000.000000000000000 ) ;
#11 = APPROVAL_DATE_TIME ( #57, #47 ) ;
#12 = DIRECTION ( 'NONE',  ( 0.000000000000000000, 0.000000000000000000, 1.000000000000000000 ) ) ;
#13 = VERTEX_POINT ( 'NONE', #263 ) ;
#14 = FACE_BOUND ( 'NONE', #297, .T. ) ;
#15 = CARTESIAN_POINT ( 'NONE',  ( 3.000000000000000000, 12.69999999999999929, 0.000000000000000000 ) ) ;
#16 = AXIS2_PLACEMENT_3D ( 'NONE', #141, #197, #144 ) ;
#17 = LINE ( 'NONE', #189, #228 ) ;
#18 = ORIENTED_EDGE ( 'NONE', *, *, #274, .T. ) ;
#19 = FACE_OUTER_BOUND ( 'NONE', #111, .T. ) ;
#20 = DIRECTION ( 'NONE',  ( -1.000000000000000000, -0.000000000000000000, -0.000000000000000000 ) ) ;
#21 = CLOSED_SHELL ( 'NONE', ( #222, #212, #331, #332, #175, #303, #94, #334, #88, #287 ) ) ;
#22 = DIRECTION ( 'NONE',  ( 0.000000000000000000, 0.000000000000000000, 1.000000000000000000 ) ) ;
#23 = DIRECTION ( 'NONE',  ( 0.000000000000000000, 0.000000000000000000, 1.000000000000000000 ) ) ;
#24 = LOCAL_TIME ( 17, 11, 25.00000000000000000, #82 ) ;
#25 = CC_DESIGN_PERSON_AND_ORGANIZATION_ASSIGNMENT ( #305, #253, ( #4 ) ) ;
#26 = PERSON_AND_ORGANIZATION_ROLE ( 'design_owner' ) ;
#27 = PERSON_AND_ORGANIZATION ( #138, #256 ) ;
#28 = MANIFOLD_SOLID_BREP ( 'Ðý×', #21 ) ;
#29 = DIRECTION ( 'NONE',  ( 0.000000000000000000, 0.000000000000000000, 1.000000000000000000 ) ) ;
#30 = DATE_AND_TIME ( #106, #24 ) ;
#31 = EDGE_CURVE ( 'NONE', #185, #84, #176, .T. ) ;
#32 = CARTESIAN_POINT ( 'NONE',  ( 3.000000000000000000, 0.000000000000000000, 0.000000000000000000 ) ) ;
#33 = AXIS2_PLACEMENT_3D ( 'NONE', #307, #102, #73 ) ;
#34 = APPROVAL ( #6, 'UNSPECIFIED' ) ;
#35 = AXIS2_PLACEMENT_3D ( 'NONE', #247, #249, #23 ) ;
#36 = ORIENTED_EDGE ( 'NONE', *, *, #290, .F. ) ;
#37 = CARTESIAN_POINT ( 'NONE',  ( 3.000000000000000000, 1.555301434917138433E-15, -12.69999999999999929 ) ) ;
#38 = EDGE_LOOP ( 'NONE', ( #137, #64, #18, #317 ) ) ;
#39 = VERTEX_POINT ( 'NONE', #65 ) ;
#40 = CIRCLE ( 'NONE', #221, 12.69999999999999929 ) ;
#41 = VERTEX_POINT ( 'NONE', #58 ) ;
#42 = CYLINDRICAL_SURFACE ( 'NONE', #151, 5.000000000000000888 ) ;
#43 = DIRECTION ( 'NONE',  ( 0.000000000000000000, 0.000000000000000000, 1.000000000000000000 ) ) ;
#44 = CARTESIAN_POINT ( 'NONE',  ( -3.000000000000000000, 0.000000000000000000, 0.000000000000000000 ) ) ;
#45 = CIRCLE ( 'NONE', #278, 5.000000000000000888 ) ;
#46 = CYLINDRICAL_SURFACE ( 'NONE', #118, 5.000000000000000888 ) ;
#47 = APPROVAL ( #110, 'UNSPECIFIED' ) ;
#48 = PERSON_AND_ORGANIZATION ( #138, #256 ) ;
#49 = DIRECTION ( 'NONE',  ( -1.000000000000000000, -0.000000000000000000, -0.000000000000000000 ) ) ;
#50 = CYLINDRICAL_SURFACE ( 'NONE', #292, 12.69999999999999929 ) ;
#51 = DIRECTION ( 'NONE',  ( -0.000000000000000000, 0.000000000000000000, 1.000000000000000000 ) ) ;
#52 = LOCAL_TIME ( 17, 11, 25.00000000000000000, #127 ) ;
#53 = CIRCLE ( 'NONE', #182, 5.000000000000000000 ) ;
#54 = DATE_AND_TIME ( #283, #52 ) ;
#55 = DIRECTION ( 'NONE',  ( -1.000000000000000000, -0.000000000000000000, -0.000000000000000000 ) ) ;
#56 = PRODUCT_RELATED_PRODUCT_CATEGORY ( 'detail', '', ( #69 ) ) ;
#57 = DATE_AND_TIME ( #322, #204 ) ;
#58 = CARTESIAN_POINT ( 'NONE',  ( 1.250000000000000444, 6.123233995736766282E-16, -5.000000000000000000 ) ) ;
#59 = APPROVAL_PERSON_ORGANIZATION ( #126, #234, #202 ) ;
#60 = EDGE_LOOP ( 'NONE', ( #160, #157, #140, #188 ) ) ;
#61 = VECTOR ( 'NONE', #172, 1000.000000000000000 ) ;
#62 = DIRECTION ( 'NONE',  ( -1.000000000000000000, -0.000000000000000000, -0.000000000000000000 ) ) ;
#63 = CARTESIAN_POINT ( 'NONE',  ( -1.614212418857619014, 0.000000000000000000, 0.000000000000000000 ) ) ;
#64 = ORIENTED_EDGE ( 'NONE', *, *, #104, .T. ) ;
#65 = CARTESIAN_POINT ( 'NONE',  ( -3.000000000000000000, 0.000000000000000000, 5.000000000000000000 ) ) ;
#66 = CIRCLE ( 'NONE', #231, 5.000000000000000888 ) ;
#67 = CARTESIAN_POINT ( 'NONE',  ( -1.250000000000000222, 5.000000000000000000, 0.000000000000000000 ) ) ;
#68 = CYLINDRICAL_SURFACE ( 'NONE', #35, 12.69999999999999929 ) ;
#69 = PRODUCT ( 'Q-OZHWP-R2-10-266-M', 'Q-OZHWP-R2-10-266-M', '', ( #75 ) ) ;
#70 = CARTESIAN_POINT ( 'NONE',  ( -3.000000000000000000, 0.000000000000000000, 12.69999999999999929 ) ) ;
#71 = CARTESIAN_POINT ( 'NONE',  ( -1.614212418857619014, 0.000000000000000000, 5.000000000000000888 ) ) ;
#72 = DIRECTION ( 'NONE',  ( 0.000000000000000000, 0.000000000000000000, 1.000000000000000000 ) ) ;
#73 = DIRECTION ( 'NONE',  ( 1.000000000000000000, 0.000000000000000000, 0.000000000000000000 ) ) ;
#74 = CC_DESIGN_APPROVAL ( #34, ( #98 ) ) ;
#75 = MECHANICAL_CONTEXT ( 'NONE', #280, 'mechanical' ) ;
#76 = FACE_OUTER_BOUND ( 'NONE', #131, .T. ) ;
#77 = COORDINATED_UNIVERSAL_TIME_OFFSET ( 8, 0, .AHEAD. ) ;
#78 = ORIENTED_EDGE ( 'NONE', *, *, #323, .T. ) ;
#79 = APPLICATION_PROTOCOL_DEFINITION ( 'international standard', 'config_control_design', 1994, #280 ) ;
#80 = FACE_OUTER_BOUND ( 'NONE', #153, .T. ) ;
#81 = VERTEX_POINT ( 'NONE', #294 ) ;
#82 = COORDINATED_UNIVERSAL_TIME_OFFSET ( 8, 0, .AHEAD. ) ;
#83 = DIRECTION ( 'NONE',  ( -1.000000000000000000, -0.000000000000000000, -0.000000000000000000 ) ) ;
#84 = VERTEX_POINT ( 'NONE', #139 ) ;
#85 = DIRECTION ( 'NONE',  ( 1.000000000000000000, 0.000000000000000000, 0.000000000000000000 ) ) ;
#86 = ORIENTED_EDGE ( 'NONE', *, *, #264, .F. ) ;
#87 = DIRECTION ( 'NONE',  ( -1.000000000000000000, -0.000000000000000000, -0.000000000000000000 ) ) ;
#88 = ADVANCED_FACE ( 'NONE', ( #183, #14 ), #258, .F. ) ;
#89 = DIRECTION ( 'NONE',  ( -1.000000000000000000, -0.000000000000000000, -0.000000000000000000 ) ) ;
#90 = DIRECTION ( 'NONE',  ( 0.000000000000000000, 0.000000000000000000, -1.000000000000000000 ) ) ;
#91 = DIRECTION ( 'NONE',  ( 0.000000000000000000, 0.000000000000000000, 1.000000000000000000 ) ) ;
#92 = DIRECTION ( 'NONE',  ( 0.000000000000000000, 0.000000000000000000, 1.000000000000000000 ) ) ;
#93 = DIRECTION ( 'NONE',  ( -1.000000000000000000, -0.000000000000000000, -0.000000000000000000 ) ) ;
#94 = ADVANCED_FACE ( 'NONE', ( #243, #319 ), #134, .F. ) ;
#95 = APPROVAL_DATE_TIME ( #179, #34 ) ;
#96 = EDGE_CURVE ( 'NONE', #152, #312, #238, .T. ) ;
#97 = APPLICATION_PROTOCOL_DEFINITION ( 'international standard', 'config_control_design', 1994, #145 ) ;
#98 = PRODUCT_DEFINITION_FORMATION_WITH_SPECIFIED_SOURCE ( 'ANY', '', #69, .NOT_KNOWN. ) ;
#99 = PERSON_AND_ORGANIZATION_ROLE ( 'creator' ) ;
#100 = AXIS2_PLACEMENT_3D ( 'NONE', #67, #330, #90 ) ;
#101 = CALENDAR_DATE ( 2020, 22, 12 ) ;
#102 = DIRECTION ( 'NONE',  ( 0.000000000000000000, 0.000000000000000000, 1.000000000000000000 ) ) ;
#103 = ORIENTED_EDGE ( 'NONE', *, *, #178, .F. ) ;
#104 = EDGE_CURVE ( 'NONE', #84, #41, #209, .T. ) ;
#105 = CC_DESIGN_APPROVAL ( #234, ( #244 ) ) ;
#106 = CALENDAR_DATE ( 2020, 22, 12 ) ;
#107 = LINE ( 'NONE', #147, #61 ) ;
#108 = DIRECTION ( 'NONE',  ( -0.000000000000000000, 0.000000000000000000, 1.000000000000000000 ) ) ;
#109 = EDGE_LOOP ( 'NONE', ( #325, #321 ) ) ;
#110 = APPROVAL_STATUS ( 'not_yet_approved' ) ;
#111 = EDGE_LOOP ( 'NONE', ( #261, #181 ) ) ;
#112 = LOCAL_TIME ( 17, 11, 25.00000000000000000, #1 ) ;
#113 = EDGE_LOOP ( 'NONE', ( #133, #262 ) ) ;
#114 = AXIS2_PLACEMENT_3D ( 'NONE', #298, #163, #268 ) ;
#115 = DIRECTION ( 'NONE',  ( 0.000000000000000000, 0.000000000000000000, 1.000000000000000000 ) ) ;
#116 = FACE_OUTER_BOUND ( 'NONE', #60, .T. ) ;
#117 = CARTESIAN_POINT ( 'NONE',  ( 1.250000000000000444, 0.000000000000000000, 0.000000000000000000 ) ) ;
#118 = AXIS2_PLACEMENT_3D ( 'NONE', #215, #299, #245 ) ;
#119 = CIRCLE ( 'NONE', #132, 5.000000000000000000 ) ;
#120 = CARTESIAN_POINT ( 'NONE',  ( -3.000000000000000000, 6.123233995736766282E-16, -5.000000000000000000 ) ) ;
#121 = DIRECTION ( 'NONE',  ( -1.000000000000000000, -0.000000000000000000, -0.000000000000000000 ) ) ;
#122 = DIRECTION ( 'NONE',  ( -1.000000000000000000, -0.000000000000000000, -0.000000000000000000 ) ) ;
#123 = CIRCLE ( 'NONE', #171, 5.000000000000000000 ) ;
#124 = CARTESIAN_POINT ( 'NONE',  ( -1.614212418857619014, 0.000000000000000000, 0.000000000000000000 ) ) ;
#125 = EDGE_CURVE ( 'NONE', #152, #13, #45, .T. ) ;
#126 = PERSON_AND_ORGANIZATION ( #138, #256 ) ;
#127 = COORDINATED_UNIVERSAL_TIME_OFFSET ( 8, 0, .AHEAD. ) ;
#128 = CC_DESIGN_PERSON_AND_ORGANIZATION_ASSIGNMENT ( #3, #99, ( #244 ) ) ;
#129 = ORIENTED_EDGE ( 'NONE', *, *, #313, .F. ) ;
#130 = SHAPE_DEFINITION_REPRESENTATION ( #162, #226 ) ;
#131 = EDGE_LOOP ( 'NONE', ( #190, #265, #210, #36 ) ) ;
#132 = AXIS2_PLACEMENT_3D ( 'NONE', #232, #87, #115 ) ;
#133 = ORIENTED_EDGE ( 'NONE', *, *, #264, .T. ) ;
#134 = PLANE ( 'NONE',  #156 ) ;
#135 = VERTEX_POINT ( 'NONE', #37 ) ;
#136 = DIRECTION ( 'NONE',  ( 0.000000000000000000, 0.000000000000000000, -1.000000000000000000 ) ) ;
#137 = ORIENTED_EDGE ( 'NONE', *, *, #323, .F. ) ;
#138 = PERSON ( 'UNSPECIFIED', 'UNSPECIFIED', 'UNSPECIFIED', ('UNSPECIFIED'), ('UNSPECIFIED'), ('UNSPECIFIED') ) ;
#139 = CARTESIAN_POINT ( 'NONE',  ( 3.000000000000000000, 6.123233995736768255E-16, -5.000000000000001776 ) ) ;
#140 = ORIENTED_EDGE ( 'NONE', *, *, #178, .T. ) ;
#141 = CARTESIAN_POINT ( 'NONE',  ( -1.614212418857619014, 0.000000000000000000, 0.000000000000000000 ) ) ;
#142 = CYLINDRICAL_SURFACE ( 'NONE', #16, 5.000000000000000888 ) ;
#143 = APPROVAL_PERSON_ORGANIZATION ( #227, #34, #229 ) ;
#144 = DIRECTION ( 'NONE',  ( 0.000000000000000000, 0.000000000000000000, 1.000000000000000000 ) ) ;
#145 = APPLICATION_CONTEXT ( 'configuration controlled 3d designs of mechanical parts and assemblies' ) ;
#146 = LINE ( 'NONE', #71, #10 ) ;
#147 = CARTESIAN_POINT ( 'NONE',  ( -1.614212418857619014, 0.000000000000000000, 5.000000000000000888 ) ) ;
#148 = CALENDAR_DATE ( 2020, 22, 12 ) ;
#149 = SECURITY_CLASSIFICATION_LEVEL ( 'unclassified' ) ;
#150 = CIRCLE ( 'NONE', #114, 12.69999999999999929 ) ;
#151 = AXIS2_PLACEMENT_3D ( 'NONE', #335, #93, #333 ) ;
#152 = VERTEX_POINT ( 'NONE', #326 ) ;
#153 = EDGE_LOOP ( 'NONE', ( #267, #259, #203, #233 ) ) ;
#154 =( GEOMETRIC_REPRESENTATION_CONTEXT ( 3 ) GLOBAL_UNCERTAINTY_ASSIGNED_CONTEXT ( ( #186 ) ) GLOBAL_UNIT_ASSIGNED_CONTEXT ( ( #281, #2, #254 ) ) REPRESENTATION_CONTEXT ( 'NONE', 'WORKASPACE' ) );
#155 = ORIENTED_EDGE ( 'NONE', *, *, #225, .F. ) ;
#156 = AXIS2_PLACEMENT_3D ( 'NONE', #242, #235, #136 ) ;
#157 = ORIENTED_EDGE ( 'NONE', *, *, #125, .T. ) ;
#158 = DIRECTION ( 'NONE',  ( -1.000000000000000000, -0.000000000000000000, -0.000000000000000000 ) ) ;
#159 = EDGE_CURVE ( 'NONE', #135, #208, #17, .T. ) ;
#160 = ORIENTED_EDGE ( 'NONE', *, *, #96, .F. ) ;
#161 = ORIENTED_EDGE ( 'NONE', *, *, #159, .T. ) ;
#162 = PRODUCT_DEFINITION_SHAPE ( 'NONE', 'NONE',  #244 ) ;
#163 = DIRECTION ( 'NONE',  ( -1.000000000000000000, -0.000000000000000000, -0.000000000000000000 ) ) ;
#164 = CC_DESIGN_DATE_AND_TIME_ASSIGNMENT ( #30, #8, ( #4 ) ) ;
#165 = VECTOR ( 'NONE', #62, 1000.000000000000000 ) ;
#166 = CARTESIAN_POINT ( 'NONE',  ( -3.000000000000000000, 1.555301434917138433E-15, -12.69999999999999929 ) ) ;
#167 = DIRECTION ( 'NONE',  ( 1.000000000000000000, 0.000000000000000000, 0.000000000000000000 ) ) ;
#168 = LINE ( 'NONE', #327, #217 ) ;
#169 = CC_DESIGN_SECURITY_CLASSIFICATION ( #4, ( #98 ) ) ;
#170 = EDGE_CURVE ( 'NONE', #318, #41, #119, .T. ) ;
#171 = AXIS2_PLACEMENT_3D ( 'NONE', #44, #248, #22 ) ;
#172 = DIRECTION ( 'NONE',  ( -1.000000000000000000, -0.000000000000000000, -0.000000000000000000 ) ) ;
#173 = FACE_OUTER_BOUND ( 'NONE', #38, .T. ) ;
#174 = EDGE_CURVE ( 'NONE', #81, #135, #150, .T. ) ;
#175 = ADVANCED_FACE ( 'NONE', ( #80 ), #296, .F. ) ;
#176 = CIRCLE ( 'NONE', #5, 5.000000000000001776 ) ;
#177 = APPROVAL_DATE_TIME ( #54, #234 ) ;
#178 = EDGE_CURVE ( 'NONE', #13, #39, #107, .T. ) ;
#179 = DATE_AND_TIME ( #101, #320 ) ;
#180 = EDGE_CURVE ( 'NONE', #185, #318, #146, .T. ) ;
#181 = ORIENTED_EDGE ( 'NONE', *, *, #274, .F. ) ;
#182 = AXIS2_PLACEMENT_3D ( 'NONE', #271, #121, #43 ) ;
#183 = FACE_OUTER_BOUND ( 'NONE', #205, .T. ) ;
#184 = ORIENTED_EDGE ( 'NONE', *, *, #285, .F. ) ;
#185 = VERTEX_POINT ( 'NONE', #220 ) ;
#186 = UNCERTAINTY_MEASURE_WITH_UNIT (LENGTH_MEASURE( 1.000000000000000082E-05 ), #281, 'distance_accuracy_value', 'NONE');
#187 = APPROVAL_PERSON_ORGANIZATION ( #266, #47, #237 ) ;
#188 = ORIENTED_EDGE ( 'NONE', *, *, #285, .T. ) ;
#189 = CARTESIAN_POINT ( 'NONE',  ( -1.614212418857619014, 1.555301434917138433E-15, -12.69999999999999929 ) ) ;
#190 = ORIENTED_EDGE ( 'NONE', *, *, #159, .F. ) ;
#191 = DIRECTION ( 'NONE',  ( -1.000000000000000000, 0.000000000000000000, -0.000000000000000000 ) ) ;
#192 = CARTESIAN_POINT ( 'NONE',  ( -1.250000000000000222, 0.000000000000000000, 0.000000000000000000 ) ) ;
#193 = CARTESIAN_POINT ( 'NONE',  ( -3.000000000000000000, 0.000000000000000000, 0.000000000000000000 ) ) ;
#194 = CARTESIAN_POINT ( 'NONE',  ( 1.250000000000000444, 0.000000000000000000, 5.000000000000000000 ) ) ;
#195 = DIRECTION ( 'NONE',  ( -1.000000000000000000, -0.000000000000000000, -0.000000000000000000 ) ) ;
#196 = AXIS2_PLACEMENT_3D ( 'NONE', #304, #89, #91 ) ;
#197 = DIRECTION ( 'NONE',  ( -1.000000000000000000, -0.000000000000000000, -0.000000000000000000 ) ) ;
#198 = PERSON_AND_ORGANIZATION ( #138, #256 ) ;
#199 = DATE_TIME_ROLE ( 'creation_date' ) ;
#200 = VECTOR ( 'NONE', #83, 1000.000000000000000 ) ;
#201 = PERSON_AND_ORGANIZATION_ROLE ( 'creator' ) ;
#202 = APPROVAL_ROLE ( '' ) ;
#203 = ORIENTED_EDGE ( 'NONE', *, *, #180, .T. ) ;
#204 = LOCAL_TIME ( 17, 11, 25.00000000000000000, #241 ) ;
#205 = EDGE_LOOP ( 'NONE', ( #7, #129 ) ) ;
#206 = ORIENTED_EDGE ( 'NONE', *, *, #96, .T. ) ;
#207 = CC_DESIGN_DATE_AND_TIME_ASSIGNMENT ( #277, #199, ( #244 ) ) ;
#208 = VERTEX_POINT ( 'NONE', #166 ) ;
#209 = LINE ( 'NONE', #324, #200 ) ;
#210 = ORIENTED_EDGE ( 'NONE', *, *, #225, .T. ) ;
#211 = DIRECTION ( 'NONE',  ( 0.000000000000000000, 0.000000000000000000, 1.000000000000000000 ) ) ;
#212 = ADVANCED_FACE ( 'NONE', ( #300 ), #142, .F. ) ;
#213 = VERTEX_POINT ( 'NONE', #70 ) ;
#214 = CARTESIAN_POINT ( 'NONE',  ( -1.614212418857619014, 6.123233995736767268E-16, -5.000000000000000888 ) ) ;
#215 = CARTESIAN_POINT ( 'NONE',  ( -1.614212418857619014, 0.000000000000000000, 0.000000000000000000 ) ) ;
#216 = DIRECTION ( 'NONE',  ( 0.000000000000000000, 0.000000000000000000, -1.000000000000000000 ) ) ;
#217 = VECTOR ( 'NONE', #270, 1000.000000000000000 ) ;
#218 = FACE_OUTER_BOUND ( 'NONE', #293, .T. ) ;
#219 = DIRECTION ( 'NONE',  ( 0.000000000000000000, 0.000000000000000000, 1.000000000000000000 ) ) ;
#220 = CARTESIAN_POINT ( 'NONE',  ( 3.000000000000000000, 0.000000000000000000, 5.000000000000001776 ) ) ;
#221 = AXIS2_PLACEMENT_3D ( 'NONE', #193, #195, #219 ) ;
#222 = ADVANCED_FACE ( 'NONE', ( #218 ), #68, .T. ) ;
#223 = EDGE_CURVE ( 'NONE', #13, #152, #66, .T. ) ;
#224 = APPROVAL_STATUS ( 'not_yet_approved' ) ;
#225 = EDGE_CURVE ( 'NONE', #81, #213, #168, .T. ) ;
#226 = ADVANCED_BREP_SHAPE_REPRESENTATION ( 'Q-OZHWP-R2-10-266-M', ( #28, #33 ), #154 ) ;
#227 = PERSON_AND_ORGANIZATION ( #138, #256 ) ;
#228 = VECTOR ( 'NONE', #158, 1000.000000000000000 ) ;
#229 = APPROVAL_ROLE ( '' ) ;
#230 = CC_DESIGN_PERSON_AND_ORGANIZATION_ASSIGNMENT ( #48, #311, ( #98 ) ) ;
#231 = AXIS2_PLACEMENT_3D ( 'NONE', #192, #167, #216 ) ;
#232 = CARTESIAN_POINT ( 'NONE',  ( 1.250000000000000444, 0.000000000000000000, 0.000000000000000000 ) ) ;
#233 = ORIENTED_EDGE ( 'NONE', *, *, #170, .T. ) ;
#234 = APPROVAL ( #224, 'UNSPECIFIED' ) ;
#235 = DIRECTION ( 'NONE',  ( 1.000000000000000000, 0.000000000000000000, 0.000000000000000000 ) ) ;
#236 = ORIENTED_EDGE ( 'NONE', *, *, #31, .T. ) ;
#237 = APPROVAL_ROLE ( '' ) ;
#238 = LINE ( 'NONE', #214, #165 ) ;
#239 = ORIENTED_EDGE ( 'NONE', *, *, #289, .T. ) ;
#240 = CIRCLE ( 'NONE', #246, 5.000000000000001776 ) ;
#241 = COORDINATED_UNIVERSAL_TIME_OFFSET ( 8, 0, .AHEAD. ) ;
#242 = CARTESIAN_POINT ( 'NONE',  ( -3.000000000000000000, 5.000000000000000000, 0.000000000000000000 ) ) ;
#243 = FACE_BOUND ( 'NONE', #314, .T. ) ;
#244 = PRODUCT_DEFINITION ( 'UNKNOWN', '', #98, #310 ) ;
#245 = DIRECTION ( 'NONE',  ( 0.000000000000000000, 0.000000000000000000, 1.000000000000000000 ) ) ;
#246 = AXIS2_PLACEMENT_3D ( 'NONE', #301, #122, #72 ) ;
#247 = CARTESIAN_POINT ( 'NONE',  ( -1.614212418857619014, 0.000000000000000000, 0.000000000000000000 ) ) ;
#248 = DIRECTION ( 'NONE',  ( -1.000000000000000000, -0.000000000000000000, -0.000000000000000000 ) ) ;
#249 = DIRECTION ( 'NONE',  ( -1.000000000000000000, -0.000000000000000000, -0.000000000000000000 ) ) ;
#250 = FACE_OUTER_BOUND ( 'NONE', #109, .T. ) ;
#251 = CC_DESIGN_APPROVAL ( #47, ( #4 ) ) ;
#252 = CIRCLE ( 'NONE', #308, 5.000000000000000000 ) ;
#253 = PERSON_AND_ORGANIZATION_ROLE ( 'classification_officer' ) ;
#254 =( NAMED_UNIT ( * ) SI_UNIT ( $, .STERADIAN. ) SOLID_ANGLE_UNIT ( ) );
#255 = CARTESIAN_POINT ( 'NONE',  ( 1.250000000000000222, 5.000000000000000000, 0.000000000000000000 ) ) ;
#256 = ORGANIZATION ( 'UNSPECIFIED', 'UNSPECIFIED', '' ) ;
#257 = ORIENTED_EDGE ( 'NONE', *, *, #223, .T. ) ;
#258 = PLANE ( 'NONE',  #269 ) ;
#259 = ORIENTED_EDGE ( 'NONE', *, *, #31, .F. ) ;
#260 = CIRCLE ( 'NONE', #273, 12.69999999999999929 ) ;
#261 = ORIENTED_EDGE ( 'NONE', *, *, #170, .F. ) ;
#262 = ORIENTED_EDGE ( 'NONE', *, *, #290, .T. ) ;
#263 = CARTESIAN_POINT ( 'NONE',  ( -1.250000000000000222, 0.000000000000000000, 5.000000000000000888 ) ) ;
#264 = EDGE_CURVE ( 'NONE', #213, #208, #260, .T. ) ;
#265 = ORIENTED_EDGE ( 'NONE', *, *, #313, .T. ) ;
#266 = PERSON_AND_ORGANIZATION ( #138, #256 ) ;
#267 = ORIENTED_EDGE ( 'NONE', *, *, #104, .F. ) ;
#268 = DIRECTION ( 'NONE',  ( 0.000000000000000000, 0.000000000000000000, 1.000000000000000000 ) ) ;
#269 = AXIS2_PLACEMENT_3D ( 'NONE', #15, #191, #108 ) ;
#270 = DIRECTION ( 'NONE',  ( -1.000000000000000000, -0.000000000000000000, -0.000000000000000000 ) ) ;
#271 = CARTESIAN_POINT ( 'NONE',  ( -3.000000000000000000, 0.000000000000000000, 0.000000000000000000 ) ) ;
#272 = CARTESIAN_POINT ( 'NONE',  ( -3.000000000000000000, 0.000000000000000000, 0.000000000000000000 ) ) ;
#273 = AXIS2_PLACEMENT_3D ( 'NONE', #272, #302, #92 ) ;
#274 = EDGE_CURVE ( 'NONE', #41, #318, #252, .T. ) ;
#275 = DIRECTION ( 'NONE',  ( -1.000000000000000000, -0.000000000000000000, -0.000000000000000000 ) ) ;
#276 = DIRECTION ( 'NONE',  ( 0.000000000000000000, 0.000000000000000000, 1.000000000000000000 ) ) ;
#277 = DATE_AND_TIME ( #148, #112 ) ;
#278 = AXIS2_PLACEMENT_3D ( 'NONE', #316, #85, #286 ) ;
#279 = DIRECTION ( 'NONE',  ( -1.000000000000000000, 0.000000000000000000, -0.000000000000000000 ) ) ;
#280 = APPLICATION_CONTEXT ( 'configuration controlled 3d designs of mechanical parts and assemblies' ) ;
#281 =( LENGTH_UNIT ( ) NAMED_UNIT ( * ) SI_UNIT ( .MILLI., .METRE. ) );
#282 = EDGE_LOOP ( 'NONE', ( #257, #206, #239, #103 ) ) ;
#283 = CALENDAR_DATE ( 2020, 22, 12 ) ;
#284 = CC_DESIGN_PERSON_AND_ORGANIZATION_ASSIGNMENT ( #198, #201, ( #98 ) ) ;
#285 = EDGE_CURVE ( 'NONE', #39, #312, #123, .T. ) ;
#286 = DIRECTION ( 'NONE',  ( 0.000000000000000000, 0.000000000000000000, -1.000000000000000000 ) ) ;
#287 = ADVANCED_FACE ( 'NONE', ( #250 ), #328, .F. ) ;
#288 = ORIENTED_EDGE ( 'NONE', *, *, #289, .F. ) ;
#289 = EDGE_CURVE ( 'NONE', #312, #39, #53, .T. ) ;
#290 = EDGE_CURVE ( 'NONE', #208, #213, #40, .T. ) ;
#291 = DIRECTION ( 'NONE',  ( -1.000000000000000000, -0.000000000000000000, -0.000000000000000000 ) ) ;
#292 = AXIS2_PLACEMENT_3D ( 'NONE', #124, #49, #29 ) ;
#293 = EDGE_LOOP ( 'NONE', ( #295, #161, #86, #155 ) ) ;
#294 = CARTESIAN_POINT ( 'NONE',  ( 3.000000000000000000, 0.000000000000000000, 12.69999999999999929 ) ) ;
#295 = ORIENTED_EDGE ( 'NONE', *, *, #174, .T. ) ;
#296 = CYLINDRICAL_SURFACE ( 'NONE', #329, 5.000000000000000888 ) ;
#297 = EDGE_LOOP ( 'NONE', ( #236, #78 ) ) ;
#298 = CARTESIAN_POINT ( 'NONE',  ( 3.000000000000000000, 0.000000000000000000, 0.000000000000000000 ) ) ;
#299 = DIRECTION ( 'NONE',  ( -1.000000000000000000, -0.000000000000000000, -0.000000000000000000 ) ) ;
#300 = FACE_OUTER_BOUND ( 'NONE', #282, .T. ) ;
#301 = CARTESIAN_POINT ( 'NONE',  ( 3.000000000000000000, 0.000000000000000000, 0.000000000000000000 ) ) ;
#302 = DIRECTION ( 'NONE',  ( -1.000000000000000000, -0.000000000000000000, -0.000000000000000000 ) ) ;
#303 = ADVANCED_FACE ( 'NONE', ( #116 ), #42, .F. ) ;
#304 = CARTESIAN_POINT ( 'NONE',  ( 3.000000000000000000, 0.000000000000000000, 0.000000000000000000 ) ) ;
#305 = PERSON_AND_ORGANIZATION ( #138, #256 ) ;
#306 = CC_DESIGN_PERSON_AND_ORGANIZATION_ASSIGNMENT ( #27, #26, ( #69 ) ) ;
#307 = CARTESIAN_POINT ( 'NONE',  ( 0.000000000000000000, 0.000000000000000000, 0.000000000000000000 ) ) ;
#308 = AXIS2_PLACEMENT_3D ( 'NONE', #117, #20, #276 ) ;
#309 = PLANE ( 'NONE',  #9 ) ;
#310 = DESIGN_CONTEXT ( 'detailed design', #145, 'design' ) ;
#311 = PERSON_AND_ORGANIZATION_ROLE ( 'design_supplier' ) ;
#312 = VERTEX_POINT ( 'NONE', #120 ) ;
#313 = EDGE_CURVE ( 'NONE', #135, #81, #315, .T. ) ;
#314 = EDGE_LOOP ( 'NONE', ( #184, #288 ) ) ;
#315 = CIRCLE ( 'NONE', #196, 12.69999999999999929 ) ;
#316 = CARTESIAN_POINT ( 'NONE',  ( -1.250000000000000222, 0.000000000000000000, 0.000000000000000000 ) ) ;
#317 = ORIENTED_EDGE ( 'NONE', *, *, #180, .F. ) ;
#318 = VERTEX_POINT ( 'NONE', #194 ) ;
#319 = FACE_OUTER_BOUND ( 'NONE', #113, .T. ) ;
#320 = LOCAL_TIME ( 17, 11, 25.00000000000000000, #77 ) ;
#321 = ORIENTED_EDGE ( 'NONE', *, *, #125, .F. ) ;
#322 = CALENDAR_DATE ( 2020, 22, 12 ) ;
#323 = EDGE_CURVE ( 'NONE', #84, #185, #240, .T. ) ;
#324 = CARTESIAN_POINT ( 'NONE',  ( -1.614212418857619014, 6.123233995736767268E-16, -5.000000000000000888 ) ) ;
#325 = ORIENTED_EDGE ( 'NONE', *, *, #223, .F. ) ;
#326 = CARTESIAN_POINT ( 'NONE',  ( -1.250000000000000222, 6.123233995736767268E-16, -5.000000000000000888 ) ) ;
#327 = CARTESIAN_POINT ( 'NONE',  ( -1.614212418857619014, 0.000000000000000000, 12.69999999999999929 ) ) ;
#328 = PLANE ( 'NONE',  #100 ) ;
#329 = AXIS2_PLACEMENT_3D ( 'NONE', #63, #55, #12 ) ;
#330 = DIRECTION ( 'NONE',  ( 1.000000000000000000, 0.000000000000000000, 0.000000000000000000 ) ) ;
#331 = ADVANCED_FACE ( 'NONE', ( #173 ), #46, .F. ) ;
#332 = ADVANCED_FACE ( 'NONE', ( #19 ), #309, .F. ) ;
#333 = DIRECTION ( 'NONE',  ( 0.000000000000000000, 0.000000000000000000, 1.000000000000000000 ) ) ;
#334 = ADVANCED_FACE ( 'NONE', ( #76 ), #50, .T. ) ;
#335 = CARTESIAN_POINT ( 'NONE',  ( -1.614212418857619014, 0.000000000000000000, 0.000000000000000000 ) ) ;
ENDSEC;
END-ISO-10303-21;
